Announcement

Collapse
No announcement yet.

RUOK?

Collapse
X
 
  • Filter
  • Time
  • Show
Clear All
new posts

  • RUOK?

    R U O K?

    E------------------------------------------
    B-------------------------------------------
    G--------3-------3-------3-------3----------
    D-------------------------------------------
    A-------------------3--------1--------------
    E---3-------1-------------------------------

    E-------------------------------------------
    B-------------------------------------------
    G--------3-------3-------3-------3--3p2p0---
    D-------------------------------------------
    A-------------------3--------1--------------
    E---3-------1-------------------------------


    I started working on Marks parts and Ill post them later. The other tab on here had the right intervals but its in the wrong key.

  • #2
    Re: RUOK?

    i guess i forgot to mention on there that mine was a half step down haha. i think i did that because on an acoustic, an open Bb rings better than a fretted Bb

    Comment

    Working...
    X