Announcement

Collapse
No announcement yet.

Pariah tab

Collapse
X
 
  • Filter
  • Time
  • Show
Clear All
new posts

  • Pariah tab

    I whipped this up in 30 minutes, so if I've missed some guitar parts in the song, don't hesitate to mention it!


    Code:
    piano(?) intro (and verse)
    
    
    e----------------------------------------
    b-10-10-10-12-12-12-10-9-9-9-9-9-9-9-9-9-
    g-9--9--9--9--9--9--9--9-9-9-9-9-9-9-9-9-
    d----------------------------------------
    a----------------------------------------
    e----------------------------------------
    
    
    e----------------------------12-12-12-10-10-9-
    b-10-10-10-12-12-12-10-9-9-9-9--9--9--9--9--9-
    g-9--9--9--9--9--9--9--9-9-9-9--9--9--9--9--9-
    d---------------------------------------------
    a---------------------------------------------
    e---------------------------------------------
    
    Intro guitar riff
    
    e---------------------------------------------
    b---------------------------------------------
    g---------------------------------------------
    d---------------------------------------------
    a---------------------------------------------
    e-2-2-2-/---14-14-14--/---5-5-5-//------x-x---
    
    
    e---------------------------------------------
    b---------------------------------------------
    g---------------------------------------------
    d---------------------------------------------
    a---------------------------------------------
    e-2-2-2-/---14-14-14-/--5-5-5-/-7-7-7-/-9-9-9-
    
    intro/verse riff again
    
    
    chorus/oh delusion part (only showing relevant strings to save space)
    (the guitar parts in the chorus are  extremely faint I find, this is what I came up with) 
    
    b--7-7-7-7-7-7-7-7-----------------
    g-7-7-7-7-7-7-7-7-777777777777777  
    
    g-66666666666666664444444444444444
    
    b--7-7-7-7-7-7-7-7-----------------
    g-7-7-7-7-7-7-7-7-777777777777777  
    
    g-6666666666666666444444445~~~~~~
    
    e------------------
    b------------------
    g------------------
    d-3-3-----3-3------   (gotta love that riff!)
    a------------------
    e-----2-2-----2-2--
    
    intro guitar riff
    
    intro/verse
    
    chorus
    
    awesome riff then...
    
    e---------------------------------------------
    b---------------------------------------------
    g---------------------------------------------
    d------4---4-4-----4-4------------------------ (que awesome drums)
    a---------------------------------------------
    e-2-2----------2-2-----2-2-------------------- 
    
    repeat last riff a bunch of times 
    (at one point the high and low notes are split between two guitars)
    
    section ended with
    
    e---------------------------------------------
    b---------------------------------------------
    g---------------------------------------------
    d------4---4-4-----4-4------------------------ 
    a---------------------------------------------
    e-2-2----------2-2-----2---------------------- 
    
    
    intro/verse riff again
    
    fin
    i have a feeling I did the structure of the song wrong, but i'm sure you get the idea
    Last edited by Knifeboy; May 10, 2009, 10:15 AM.

  • #2
    Re: Pariah tab

    Originally posted by Knifeboy View Post
    I whipped this up in 30 minutes, so if I've missed some guitar parts in the song, don't hesitate to mention it!


    Code:
    piano(?) intro (and verse)
    
    
    e----------------------------------------
    b-10-10-10-13-13-13-10-9-9-9-9-9-9-9-9-9-
    g-9--9--9--9--9--9--9--9-9-9-9-9-9-9-9-9-
    d----------------------------------------
    a----------------------------------------
    e----------------------------------------
    
    
    e----------------------------13-13-13-11-11-9-
    b-10-10-10-13-13-13-10-9-9-9-9--9--9--9--9--9-
    g-9--9--9--9--9--9--9--9-9-9-9--9--9--9--9--9-
    d---------------------------------------------
    a---------------------------------------------
    e---------------------------------------------
    
    Intro guitar riff
    
    e---------------------------------------------
    b---------------------------------------------
    g---------------------------------------------
    d---------------------------------------------
    a---------------------------------------------
    e-2-2-2-/---14-14-14--/---5-5-5-//------x-x---
    
    
    e---------------------------------------------
    b---------------------------------------------
    g---------------------------------------------
    d---------------------------------------------
    a---------------------------------------------
    e-2-2-2-/---14-14-14-/--5-5-5-/-7-7-7-/-9-9-9-
    
    intro/verse riff again
    
    
    chorus/oh delusion part (only showing relevant strings to save space)
    (the guitar parts in the chorus are  extremely faint I find, this is what I came up with) 
    
    b--7-7-7-7-7-7-7-7-----------------
    g-7-7-7-7-7-7-7-7-777777777777777  
    
    g-66666666666666664444444444444444
    
    b--7-7-7-7-7-7-7-7-----------------
    g-7-7-7-7-7-7-7-7-777777777777777  
    
    g-6666666666666666444444445~~~~~~
    
    e------------------
    b------------------
    g------------------
    d-3-3-----3-3------   (gotta love that riff!)
    a------------------
    e-----2-2-----2-2--
    
    intro guitar riff
    
    intro/verse
    
    chorus
    
    awesome riff then...
    
    e---------------------------------------------
    b---------------------------------------------
    g---------------------------------------------
    d------4---4-4-----4-4------------------------ (que awesome drums)
    a---------------------------------------------
    e-2-2----------2-2-----2-2-------------------- 
    
    repeat last riff a bunch of times 
    (at one point the high and low notes are split between two guitars)
    
    section ended with
    
    e---------------------------------------------
    b---------------------------------------------
    g---------------------------------------------
    d------4---4-4-----4-4------------------------ 
    a---------------------------------------------
    e-2-2----------2-2-----2---------------------- 
    
    
    intro/verse riff again
    
    fin
    i have a feeling I did the structure of the song wrong, but i'm sure you get the idea


    SHOULD BE:


    e----------------------------------------
    b-10-10-10-12-12-12-10-9-9-9-9-9-9-9-9-9-
    g-9--9--9--9--9--9--9--9-9-9-9-9-9-9-9-9-
    d----------------------------------------
    a----------------------------------------
    e----------------------------------------


    e----------------------------12-12-12-10-10-9-
    b-10-10-10-12-12-12-10-9-9-9-9--9--9--9--9--9-
    g-9--9--9--9--9--9--9--9-9-9-9--9--9--9--9--9-
    d---------------------------------------------
    a---------------------------------------------
    e---------------------------------------------
    Facebookem, Danno | Twitter me this...

    Comment


    • #3
      Re: Pariah tab

      Oops, you're right, I misstyped, I'm doing this on a guitar tuned to D standard, so sometimes the mental number conversion slips

      Comment


      • #4
        Re: Pariah tab

        it happens to me a lot when i tab out things i make up and i go back to play it and im like WTF this makes no sense. that or i'll forget to put a capo on but that's just sheer stupidity on my part.
        Facebookem, Danno | Twitter me this...

        Comment


        • #5
          Re: Pariah tab

          Nice job...everything seems right to me. Intro guitar riff is so simple yet amazing to play/hear.
          Weíre getting older, older, older

          Comment


          • #6
            Re: Pariah tab

            Yup, that's almost exactly how I've been playing it. The only thing I do different is...

            e---------------------------------------------
            b---------------------------------------------
            g---------------------------------------------
            d---------------------------------------------
            a------------9-9-9-/------------------------------
            e-2-2-2-/--------------5-5-5-//------x-x---
            Originally posted by Ars Sycro
            I have a type. I like hot bitches.

            Comment


            • #7
              Re: Pariah tab

              I thought you could hear him slide all the way up from 2 to 14
              and now i have proof that he actually does it
              http://www.youtube.com/watch?v=PN6EJ3b8FNg

              Comment


              • #8
                Re: Pariah tab

                Originally posted by Knifeboy View Post
                I thought you could hear him slide all the way up from 2 to 14
                and now i have proof that he actually does it
                http://www.youtube.com/watch?v=PN6EJ3b8FNg

                he does. i was going to say something about this the other day. he slides the entire time. otherwise it doesnt sound right.
                Facebookem, Danno | Twitter me this...

                Comment


                • #9
                  Re: Pariah tab

                  Yeah. That's right. I never said you were wrong. That's just how I've been playing it... I tried out the /14 slide today and obviously like it much better and find it much easier...
                  Originally posted by Ars Sycro
                  I have a type. I like hot bitches.

                  Comment


                  • #10
                    Re: Pariah tab

                    That last post of mine needs a smiley badly, it seems way too serious and "hah I was right!"ish

                    Here's a bunch for if it looks like I'm taking tabbing too seriously in the future:

                    Comment


                    • #11
                      Re: Pariah tab

                      ...beter evidence...

                      Skip to around 1 min...

                      http://www.youtube.com/watch?v=e7nWYgPbVcI
                      Last edited by One Second Clubber; May 25, 2009, 06:41 PM.
                      Originally posted by Ars Sycro
                      I have a type. I like hot bitches.

                      Comment


                      • #12
                        Re: Pariah tab

                        chords:
                        Code:
                        D   Bm                    F#m                             E
                        Oh delusions are meant to justify, justify the things you do
                        
                        D   Bm                    F#m                      E     F
                        Oh delusions never really qualify, qualified as an excuse

                        Comment


                        • #13
                          Re: Pariah tab

                          Originally posted by Volvox View Post
                          chords:
                          Code:
                          D   Bm                    F#m                             E
                          Oh delusions are meant to justify, justify the things you do
                          
                          D   Bm                    F#m                      E     F
                          Oh delusions never really qualify, qualified as an excuse
                          I always play this during the chorus part. I have no idea how to even play what was originally tabbed.

                          Comment


                          • #14
                            Re: Pariah tab

                            almost finished my guitar pro of this. i just haven't done the last few bars because its the same thing from the start etc.

                            i messed around with the original posters suggestion for the chorus and its pretty spot on. i mixed that with chords and the few high notes the piano plays and it sounds pretty sweet. plus the second "oh delusion" the bass goes up an octave for the F#m, E and F.

                            so yeah, tell me what you think. it should be attached.
                            Attached Files

                            Comment


                            • #15
                              Re: Pariah tab

                              awesome thanks!!

                              Comment

                              Working...
                              X