Announcement

Collapse
No announcement yet.

Bug Eyes Tab - Jimmy Kimmel

Collapse
X
 
  • Filter
  • Time
  • Show
Clear All
new posts

  • Bug Eyes Tab - Jimmy Kimmel

    I hate to start a new topic on an old subject, but I wanted to make sure somebody saw it.

    The "Bug Eyes" tab is driving me crazy, I've yet to see a concrete version. I've seen some good versions of the acoustic, and I think that's pretty much worked out based on video clips that I've seen. But after seeing dredg on Kimmel, I was able to finally work out some parts I wasn't sure of. However, it's still not complete, because I'm still not sure on the verse, and the first part of the chorus, which I thought was Gavin on the slide guitar but found out it's Mark. Here's what I have, and I've marked the questionable parts with "?", if somebody could help me out I'd be grateful.

    You'll have to copy and paste this into notepad to make it readable.

    dredg
    Bug Eyes

    Tuning: Standard 1 step down DGCFAd

    Intro

    d-------------------------------------
    A---10--8---10--8----8--10------------
    F---x---x---x---x----x--x-------------
    C---10--9---10--9----x--x----10--5----
    G---8---8---8---8----7--7----10--5----
    D--------------------5--5----8---3----

    Verse
    ? ? ? ?
    d---------------------------------------
    A---10--8---10--8----13--12---13--12----
    F---x---x---x---x----x---x----x---x-----
    C---10--9---10--9----10--9----10--9-----
    G---8---8---8---8-----------------------
    D---------------------------------------

    Pre-Chorus

    d------------------12~-
    A---10~--12~--13~------
    F----------------------
    C----------------------
    G----------------------
    D----------------------

    Chorus

    d----????-----5----0----3--
    A----????-----5----3----3--
    F----????-----6----0----4--
    C--8-????-----7----2----5--
    G--6-????-----7----3----5--
    D----????-----5---------3--


    Thanks!

  • #2
    re: Bug Eyes Tab - Jimmy Kimmel

    I think its mostly the same as the accoustic version with the acception of the bridge. Its probably layered guitars that are making it sound different in the album version.
    Its Time to Kick Ass and Chew Bubble Gum

    Comment


    • #3
      re: Bug Eyes Tab - Jimmy Kimmel

      If you listen to the performance on Kimmel, he's definitely doing something in the chorus, it sounds to me like octaves, but I can't be certain.

      Comment

      Working...
      X