Announcement

Collapse
No announcement yet.

Down To The Cellar

Collapse
X
 
  • Filter
  • Time
  • Show
Clear All
new posts

  • Down To The Cellar

    I can't figure this thing out. He plays it too fast for me to figure what's going on. You can hear that Gavin keeps repeating these three notes.

    e-------------------------------------
    B---3---2---0-----------------------
    G-------------------------------------
    D-------------------------------------
    A-------------------------------------
    E-------------------------------------

    I think he's doing something to this effect...

    e-----5---3---2---3---2---0-------
    B---3---2---0---3---2---0---------
    G-------------------------------------
    D-------------------------------------
    A-------------------------------------
    E-------------------------------------

    ...but then I get lost and can't figure out what he's repeating. What an odd riff...

    I'm using this as a reference
    http://www.youtube.com/watch?v=ygax6m5pQXw

    ------------------------------------------

    Originally posted by Color Spray View Post

    e-----5---2---0---3---2---0-------
    B---2---0---3---2---0---3---------
    G----------------------------------
    D----------------------------------
    A----------------------------------
    E----------------------------------
    Last edited by One Second Clubber; March 25, 2009, 12:14 AM.
    Originally posted by Ars Sycro
    I have a type. I like hot bitches.

  • #2
    Re: Down To The Cellar

    dude, i was trying to figure this out last night. im definitely going to check this out when i get home. ill try to figure out some more of it. we should try to tackle savior next. i figured out the synth part, but the guitar is a bit harder.

    Comment


    • #3
      Re: Down To The Cellar

      I gave this a try last night too. To no avail. Your best look is at the Coachella video but I still cannot find all the notes in proper order. Needless to say Gavin is a much more talented guitarist than I would have ever given credit for.

      Comment


      • #4
        Re: Down To The Cellar

        well, with the three of us working on it, im sure we'll figure it out in no time.

        Comment


        • #5
          Re: Down To The Cellar

          Originally posted by drummerjs View Post
          dude, i was trying to figure this out last night. im definitely going to check this out when i get home. ill try to figure out some more of it. we should try to tackle savior next. i figured out the synth part, but the guitar is a bit harder.
          Haha. Dude I have this sick synth/wah pedal that works wicked for Saviour. And my DL 4 is perfect for the delayed little fills that Mark plays right before the vocals begin. Still having trouble with the opening guitar part though. I agree, lets get this song done.

          Comment


          • #6
            Re: Down To The Cellar

            well lets get it together then. what key do you think it is in?

            Comment


            • #7
              Re: Down To The Cellar

              Originally posted by Silentbob1 View Post
              ...Gavin is a much more talented guitarist than I would have ever given credit for.
              Yeah. I knew he could play but damn. This riff is pretty tough and I haven't heard him mess it up live yet...

              ...from what I've got figured out, I can't play it for more then 2 seconds before screwing up...
              Originally posted by Ars Sycro
              I have a type. I like hot bitches.

              Comment


              • #8
                Re: Down To The Cellar

                ----5---2---0---3---2---0---
                -(0)--0---3---0---0---3---0-
                -----------------------------
                -----------------------------
                -----------------------------
                -----------------------------

                i only listened to the 10 first seconds... I'm not listening untill iget the whole thing but you guys made me curious!

                Edit: the note in parenthesis is the one he starts on in that video, on the offbeat
                Last edited by Knifeboy; March 23, 2009, 11:19 PM.

                Comment


                • #9
                  Re: Down To The Cellar

                  Originally posted by Knifeboy View Post
                  ----5---2---0---3---2---0---
                  -(0)--0---3---0---0---3---0-
                  -----------------------------
                  -----------------------------
                  -----------------------------
                  -----------------------------

                  i only listened to the 10 first seconds... I'm not listening untill iget the whole thing but you guys made me curious!

                  Edit: the note in parenthesis is the one he starts on in that video, on the offbeat
                  That's either 99% or 100%
                  http://www.facebook.com/iknockstuffdown

                  Originally posted by Knifeboy
                  seeing how i'm a pompous asshole, AND a rapist.. Do you really have to ask?

                  Comment


                  • #10
                    Re: Down To The Cellar

                    seeing how there's less than a hundred notes, I'd say it's 100%

                    Comment


                    • #11
                      Re: Down To The Cellar

                      excellent choice.
                      http://www.facebook.com/iknockstuffdown

                      Originally posted by Knifeboy
                      seeing how i'm a pompous asshole, AND a rapist.. Do you really have to ask?

                      Comment


                      • #12
                        Re: Down To The Cellar

                        Originally posted by Knifeboy View Post
                        ----5---2---0---3---2---0---
                        -(0)--0---3---0---0---3---0-
                        -----------------------------
                        -----------------------------
                        -----------------------------
                        -----------------------------

                        i only listened to the 10 first seconds... I'm not listening untill iget the whole thing but you guys made me curious!

                        Edit: the note in parenthesis is the one he starts on in that video, on the offbeat
                        I think I'm actually hearing something like this:

                        e-----5---2---0---3---2---0-------
                        B---2---0---3---2---0---3---------
                        G----------------------------------
                        D----------------------------------
                        A----------------------------------
                        E----------------------------------


                        It's actually not too hard to pick up if you listen to the high notes and the low notes separately.

                        Comment


                        • #13
                          Re: Down To The Cellar

                          Guess I was only 91.666... percent right after all!

                          Comment


                          • #14
                            Re: Down To The Cellar

                            Originally posted by Color Spray View Post
                            I think I'm actually hearing something like this:

                            e-----5---2---0---3---2---0-------
                            B---2---0---3---2---0---3---------
                            G----------------------------------
                            D----------------------------------
                            A----------------------------------
                            E----------------------------------


                            It's actually not too hard to pick up if you listen to the high notes and the low notes separately.

                            yeah that's def the beginning. sounds pretty spot on. watch a video of gavin playing this and you'll see it reaches for the five with his pinky.

                            im not sure because i tried figuring this out weeks ago, but there's another note in there that is played on the 1st bea of each measure. but looking at this im not sure of the tempo so it could just be the 2 on the b string.
                            Facebookem, Danno | Twitter me this...

                            Comment


                            • #15
                              Re: Down To The Cellar

                              i have some of marks parts figured out, i will try to finish them tomorrow and post them

                              Comment

                              Working...
                              X