Announcement

Collapse
No announcement yet.

sanzen tab

Collapse
X
 
  • Filter
  • Time
  • Show
Clear All
new posts

  • sanzen tab

    dredg: Sanzen

    TABBED BY SKYSWIMMER


    Intro - Quick strum


    E------------------4.......---

    B--8..................4.......---

    G----------------------------

    D----------------------------

    A--6..................6......----

    E--4..................4......----



    VERSE:

    Listen to CD for strumming

    E--10------------ -------------------------

    B--x-------8----- -11----9---8---8-------

    G--x-------x----- ----------------x-------

    D--8-------x----- ---------------x------- x2 each

    A--x-------6----- -10---10--10--6-------

    E--6-------4----- --8----8---8---4-------


    CHORUS:

    fast strum

    E-------------------------------------4........--

    B-------------8....9..11..------------4........--

    G--------7....-------------13..10.....8........--

    D--13....-----8...........--x.....x-----x........--

    A--10....8....6...........--10....8......6........--

    E---8....6....6-------------8....6......4........--

    this part twice the second time

    BRIDGE:

    E--------------------------------------------------------

    B--------------------------------------------------------
    G--8.-...-...-...-...-...-...-...10-...-...-...-...-...-...-...-

    D--8.-...-...-...-...-...-...-...10-...-...-...-...-...-...-...-

    A--6.-...-...-...-...-...-...-...8-...-...-...-...-...-...-...-

    E--------------------------------------------------------

    x2

    Only now remains...

    E-------------------------------

    B-------------------------------

    G-------------------------------

    D--6---------8..10-8-10-8-10-8

    A--6---------8..8--8--8--8--8-8

    E--4---------6..6--6--6--6--6-6

    Fast strum

    E--------------------------------------

    B--------------------------------------

    G--8---5---8---12--13---15---------

    D--------------------------------------

    A--6---3---6---10--11--13----------

    E--------------------------------------

    Main guitar quiet solo

    E----10---10-10--11/10-10--8/10-10----------------

    B-11---11------11--------11-------11-8-8--8--8--8-

    G-----------------------------------------8--8-----8----

    D------------------------------------------------------- x2

    A-------------------------------------------------------

    E-------------------------------------------------------
    Small Gavin solo

    E------------------------------8/11~~~~~~~-----

    B--8/11~~~~~9~~8~~~~~---------------------

    G----------------------------------------------------

    D---------------------------------------------------- x2

    A----------------------------------------------------

    E----------------------------------------------------

    CHORUS and END

  • #2
    Good job, it sounds really good, except in the verse, I think the first chord is:

    E--------

    B--15----

    G--x----

    D------

    A--13------

    E--11----

    I think there might also be in extra note thrown in there..probably on the D string.

    Also, the bridge sounds a little off...let me play around with it some more and see if I can correct it. You have a lot of the right chords in the chorus, but I think it's wrong in some places.

    I'll work on some more corrections for this. It's a great start though.

    Comment


    • #3
      i figured them out, if anyone still needs them pm me, i dont want to write it down if its not needed.

      Comment

      Working...
      X