Announcement

Collapse
No announcement yet.

Bug Eyes Tab

Collapse
X
 
  • Filter
  • Time
  • Show
Clear All
new posts

  • Bug Eyes Tab

    I noticed that the tabs got deleted, so I'll repost my old tab of "Bug Eyes"



    Artist: Dredg

    Song: Bug Eyes

    Tabbed by Fmfrequency



    Intro: Tremolo pick these notes

    E|--3~----5~----6~----10~----13~----15~----18~------------ X3

    B|--------------------------------------------------------

    G|--------------------------------------------------------

    D|--------------------------------------------------------

    A|--------------------------------------------------------

    E|--------------------------------------------------------



    Pre Verse

    E|--------------------------------------------------------

    B|--------------------------------------------------------

    G|---12-12-12-12-12-12-12-12---10-10-10-10-10-10-10-10----

    D|--------------------------------------------------------X3

    A|---10-10-10-10-10-10-10-10---8--8--8--8--8--8--8--8-----

    E|--------------------------------------------------------



    End pre verse with this

    E|--------------------------------------------------------

    B|--------------------------------------------------------

    G|--------------------------------------------------------

    D|---8--8--8--8--8--8--8--8----3--3--3--3--3--3--3--3-----

    A|---8--8--8--8--8--8--8--8----3--3--3--3--3--3--3--3-----

    E|---6--6--6--6--6--6--6--6----1--1--1--1--1--1--1--1-----



    Verse:

    Bring back those good ole days...

    E|--------------------------------------------------------

    B|--------------------------------------------------------

    G|---12-12-12-12-12-12-12-12---10-10-10-10-10-10-10-10----

    D|--------------------------------------------------------X2

    A|---10-10-10-10-10-10-10-10---8--8--8--8--8--8--8--8-----

    E|--------------------------------------------------------



    ...Now I walk alone out here in the cold...

    E|--------------------------------------------------------

    B|--------------------------------------------------------

    G|---15-15-15-15-15-15-15-15---14-14-14-14-14-14-14-14----

    D|--------------------------------------------------------X2

    A|---13-13-13-13-13-13-13-13---12-12-12-12-12-12-12-12----

    E|--------------------------------------------------------



    Pre Chorus:

    ...Gonna need a home...You'd expect the same, now wouldn't you..

    E|----(3)-------(5)--------(6)-------(10)-----------------

    B|----(long sustain for each note here)-------------------

    G|--------------------------------------------------------

    D|--------------------------------------------------------

    A|--------------------------------------------------------

    E|--------------------------------------------------------



    Chorus:

    ...wouldn't you

    E|--------------------------------------------------------

    B|--------------------------------------------------------

    G|--------------------------------------------------------

    D|---8--8--8--8--8--8--8--8----3--3--3--3--3--3--3--3-----

    A|---8--8--8--8--8--8--8--8----3--3--3--3--3--3--3--3-----

    E|---6--6--6--6--6--6--6--6----1--1--1--1--1--1--1--1-----



    Your journey back to birth its haunting you...

    E|--------------------------------------------------------

    B|--------------------------------------------------------

    G|---8--8--8--8--8--8--8--8-------------------------------

    D|---8--8--8--8--8--8--8--8----8--8--8--8--8--8--8--8-----

    A|---6--6--6--6--6--6--6--6----8--8--8--8--8--8--8--8-----

    E|-----------------------------6--6--6--6--6--6--6--6-----



    ...its haunting you

    E|--------------------------------------------------------

    B|--------------------------------------------------------

    G|--------------------------------------------------------

    D|---8--8--8--8--8--8--8--8----3--3--3--3--3--3--3--3-----

    A|---8--8--8--8--8--8--8--8----3--3--3--3--3--3--3--3-----

    E|---6--6--6--6--6--6--6--6----1--1--1--1--1--1--1--1-----



    Play Verse 2 just the same as Verse 1

    "Only those who accept will find acceptance in return

    When you've been trimmed by like edges

    Thrown just aside, and wilt, and spit at each other from a distance

    With constant resistant from you"



    Play the Prechorus again with heavy sustain on each note



    Play the Chorus twice:



    Bridge:

    ...It's been ten years strong, thats much too long

    E|-----------------------------------------------------------------

    B|-------------------------------------13--15-------------13-------

    G|-----(12)------------(15)--------------------15------15----14----X3

    D|-----------------------------------------------------------------

    A|-----------------------------------------------------------------

    E|-----------------------------------------------------------------

    Note: this is a combination of the piano transposed to guitar and

    the actual guitar part with some missing notes.



    Do a variation of the intro after this where you actually tremolo pick

    the notes for a little longer.



    Play the Pre verse (Gtr II is playing the intro alongside)



    Play the chorus again



    Song ends with this on heavy, sustained chords

    E|--------------------------------------------------------

    B|--------------------------------------------------------

    G|---(12)----------(15)----------(15)------------(14)-----

    D|--------------------------------------------------------

    A|---(10)----------(13)----------(13)------------(12)-----

    E|--------------------------------------------------------






    </p>

  • #2
    Re: Bug Eyes Tab

    Couple things:



    I think the song is tuned down 1/2 step



    The intro is Gavin's pedal steel and I think it's just a pulsing effect, not trem picking...



    The chords Mark uses in general are a lot more complex than just octaves and power chords - there's at least 3rds and 2nds/9ths in most of them too.


    </p>

    Comment

    Working...
    X